0
SECTION
2
HEADER
9
$INSUNITS
70
4
9
$ACADVER
1
AC1014
9
$HANDSEED
5
FFFF
0
ENDSEC
0
SECTION
2
TABLES
0
TABLE
2
VPORT
5
8
100
AcDbSymbolTable
0
ENDTAB
0
TABLE
2
LTYPE
5
5
100
AcDbSymbolTable
0
LTYPE
5
14
100
AcDbSymbolTableRecord
100
AcDbLinetypeTableRecord
2
BYBLOCK
70
0
0
LTYPE
5
15
100
AcDbSymbolTableRecord
100
AcDbLinetypeTableRecord
2
BYLAYER
70
0
0
ENDTAB
0
TABLE
2
LAYER
5
2
100
AcDbSymbolTable
70
2
0
LAYER
5
50
100
AcDbSymbolTableRecord
100
AcDbLayerTableRecord
2
0
70
0
6
CONTINUOUS
0
ENDTAB
0
TABLE
2
STYLE
5
3
100
AcDbSymbolTable
70
1
0
STYLE
5
11
100
AcDbSymbolTableRecord
100
AcDbTextStyleTableRecord
2
STANDARD
70
0
0
ENDTAB
0
TABLE
2
VIEW
5
6
100
AcDbSymbolTable
70
0
0
ENDTAB
0
TABLE
2
UCS
5
7
100
AcDbSymbolTable
70
0
0
ENDTAB
0
TABLE
2
APPID
5
9
100
AcDbSymbolTable
70
2
0
APPID
5
12
100
AcDbSymbolTableRecord
100
AcDbRegAppTableRecord
2
ACAD
70
0
0
ENDTAB
0
TABLE
2
DIMSTYLE
5
A
100
AcDbSymbolTable
70
1
0
ENDTAB
0
TABLE
2
BLOCK_RECORD
5
1
100
AcDbSymbolTable
70
1
0
BLOCK_RECORD
5
1F
100
AcDbSymbolTableRecord
100
AcDbBlockTableRecord
2
*MODEL_SPACE
0
BLOCK_RECORD
5
1B
100
AcDbSymbolTableRecord
100
AcDbBlockTableRecord
2
*PAPER_SPACE
0
ENDTAB
0
ENDSEC
0
SECTION
2
BLOCKS
0
BLOCK
5
20
100
AcDbEntity
100
AcDbBlockBegin
2
*MODEL_SPACE
0
ENDBLK
5
21
100
AcDbEntity
100
AcDbBlockEnd
0
BLOCK
5
1C
100
AcDbEntity
100
AcDbBlockBegin
2
*PAPER_SPACE
0
ENDBLK
5
1D
100
AcDbEntity
100
AcDbBlockEnd
0
ENDSEC
0
SECTION
2
ENTITIES
0
LWPOLYLINE
5
100
100
AcDbEntity
8
0
100
AcDbPolyline
90
20
70
1
43
0.0
10
44.5
20
654.5
10
44.5
20
630.5
42
0.13165249758731923
10
45.236860279184761
20
627.75000000000136
42
0.60174388387006639
10
50.397896224015454
20
619.51441173674016
42
-0.3964527381392417
10
594.61976967776354
20
177.18528124238193
42
0.097853810207605862
10
595.30774587948599
20
175.16694728541393
42
0.13165249759626657
10
594.57088560020463
20
172.41694728524817
10
594.57088560020475
20
133.71457439774633
42
0.56367058978575801
10
602.62196600564118
20
128.84199923003624
42
0.13165249758746086
10
605.33921253436051
20
127.99227317229099
10
684.27769877454466
20
124.73167306584416
42
0.99999999999999989
10
684.73167306584412
20
135.72230122545537
10
619.9518297484326
20
138.39807034742313
42
-0.40217335415545413
10
605.57088560020463
20
153.38529056507474
10
605.57088560020463
20
172.41694728524811
42
0.13165249759621089
10
604.8340253209235
20
175.16694728541364
42
0.16574945642520253
10
605.52200152280659
20
178.64861332813581
42
0.38465710220633276
10
70.97197349349446
20
631.59651832709005
42
-0.42346126699014053
10
55.5
20
646.58909118905854
10
55.5
20
654.5
42
0.99999999999999989
0
LWPOLYLINE
5
101
100
AcDbEntity
8
0
100
AcDbPolyline
90
4
70
1
43
0.0
10
571.38776855283152
20
167.60000000000002
10
571.38776855283163
20
150.00000000000003
10
588.98776855283165
20
150
10
588.98776855283154
20
167.60000000000002
0
LWPOLYLINE
5
102
100
AcDbEntity
8
0
100
AcDbPolyline
90
4
70
1
43
0.0
10
668.9866666724954
20
38.986666668039284
10
651.38666667249549
20
38.986666668039305
10
651.38666667249527
20
21.386666668039297
10
668.9866666724954
20
21.386666668039286
0
LWPOLYLINE
5
103
100
AcDbEntity
8
0
100
AcDbPolyline
90
4
70
1
43
0.0
10
651.38666667249549
20
78.986666668039305
10
651.38666667249527
20
61.38666666803929
10
668.9866666724954
20
61.38666666803929
10
668.9866666724954
20
78.986666668039291
0
LWPOLYLINE
5
104
100
AcDbEntity
8
0
100
AcDbPolyline
90
4
70
1
43
0.0
10
440.91362340260923
20
571.14793125396159
10
451.00856868238901
20
585.56500723344698
10
436.59149270290231
20
595.65995251322511
10
426.49654742312379
20
581.24287653373926
0
LWPOLYLINE
5
105
100
AcDbEntity
8
0
100
AcDbPolyline
90
4
70
1
43
0.0
10
645.87428488541082
20
297.67895060100415
10
662.4128750112435
20
303.69850512353418
10
656.39332048871154
20
320.23709524936612
10
639.85473036287954
20
314.21754072683478
0
LWPOLYLINE
5
106
100
AcDbEntity
8
0
100
AcDbPolyline
90
4
70
1
43
0.0
10
596.72195778148603
20
402.20725340856814
10
611.7016112163783
20
411.44684122245513
10
602.46202340248965
20
426.42649465734627
10
587.48236996759852
20
417.18690684345847
0
LWPOLYLINE
5
107
100
AcDbEntity
8
0
100
AcDbPolyline
90
4
70
1
43
0.0
10
527.44762756057094
20
494.63660221080033
10
540.2494036522578
20
506.71445503728876
10
528.17155082576755
20
519.51623112897414
10
515.36977473488048
20
507.43837830163864
0
LWPOLYLINE
5
108
100
AcDbEntity
8
0
100
AcDbPolyline
90
4
70
1
43
0.0
10
340.69542275168232
20
628.57988756620659
10
347.66642663397295
20
644.74049104729875
10
331.50582315287977
20
651.71149492958762
10
324.53481927059045
20
635.55089144849512
0
LWPOLYLINE
5
109
100
AcDbEntity
8
0
100
AcDbPolyline
90
4
70
1
43
0.0
10
230.93391703445363
20
664.55945413218672
10
234.49294630728235
20
681.79584907421042
10
217.25655136420846
20
685.35487834725382
10
213.6975220911643
20
668.11848340418055
0
LWPOLYLINE
5
110
100
AcDbEntity
8
0
100
AcDbPolyline
90
4
70
1
43
0.0
10
98.564315174673553
20
695.20000000000005
10
98.564315174673084
20
677.60000000000002
10
116.1643151746716
20
677.60000000000002
10
116.16431517467355
20
695.20000000000005
0
LWPOLYLINE
5
111
100
AcDbEntity
8
0
100
AcDbPolyline
90
4
70
1
43
0.0
10
101.78403786922129
20
650
10
119.38403786922126
20
650
10
119.38403786922086
20
667.60000000000002
10
101.78403786922088
20
667.60000000000002
0
LWPOLYLINE
5
112
100
AcDbEntity
8
0
100
AcDbPolyline
90
4
70
1
43
0.0
10
611.38776855283152
20
167.60000000000002
10
611.38776855283163
20
150.00000000000003
10
628.98776855283165
20
150
10
628.98776855283154
20
167.60000000000002
0
LWPOLYLINE
5
113
100
AcDbEntity
8
0
100
AcDbPolyline
90
4
70
1
43
0.0
10
651.38666667249549
20
118.98666666803931
10
651.38666667249527
20
101.38666666803928
10
668.9866666724954
20
101.38666666803928
10
668.9866666724954
20
118.98666666803928
0
LWPOLYLINE
5
114
100
AcDbEntity
8
0
100
AcDbPolyline
90
4
70
1
43
0.0
10
451.38776855283152
20
167.60000000000002
10
451.38776855283169
20
150.00000000000003
10
468.98776855283165
20
150
10
468.9877685528316
20
167.60000000000002
0
LWPOLYLINE
5
115
100
AcDbEntity
8
0
100
AcDbPolyline
90
4
70
1
43
0.0
10
491.38776855283152
20
167.60000000000002
10
491.38776855283169
20
150.00000000000003
10
508.98776855283165
20
150
10
508.9877685528316
20
167.60000000000002
0
LWPOLYLINE
5
116
100
AcDbEntity
8
0
100
AcDbPolyline
90
4
70
1
43
0.0
10
61.784037869221287
20
650
10
79.384037869221274
20
650
10
79.384037869220862
20
667.60000000000002
10
61.784037869220882
20
667.60000000000002
0
LWPOLYLINE
5
117
100
AcDbEntity
8
0
100
AcDbPolyline
90
4
70
1
43
0.0
10
651.38666667249549
20
158.98666666803931
10
651.38666667249527
20
141.38666666803928
10
668.9866666724954
20
141.38666666803928
10
668.9866666724954
20
158.98666666803928
0
LWPOLYLINE
5
118
100
AcDbEntity
8
0
100
AcDbPolyline
90
4
70
1
43
0.0
10
21.784037869220878
20
667.60000000000002
10
21.78403786922129
20
650
10
39.384037869221274
20
650
10
39.384037869220862
20
667.60000000000002
0
LWPOLYLINE
5
119
100
AcDbEntity
8
0
100
AcDbPolyline
90
4
70
1
43
0.0
10
651.38666667249549
20
198.98666666803931
10
651.38666667249527
20
181.38666666803931
10
668.9866666724954
20
181.38666666803931
10
668.9866666724954
20
198.98666666803928
0
LWPOLYLINE
5
120
100
AcDbEntity
8
0
100
AcDbPolyline
90
4
70
1
43
0.0
10
531.38776855283152
20
167.60000000000002
10
531.38776855283163
20
150.00000000000003
10
548.98776855283165
20
150
10
548.98776855283154
20
167.60000000000002
0
LWPOLYLINE
5
121
100
AcDbEntity
8
0
100
AcDbPolyline
90
11
70
1
43
0.0
10
1.7840378692211978
20
699.99772657377048
42
-0.52552799045596688
10
699.99989157753271
20
-0.38960421288134484
10
580
20
0
10
0
20
0
10
0
20
5.0000000000000071
42
-0.4142135623730957
10
75
20
79.999999999999986
10
342.23616149557364
20
80.000000000005258
42
0.4142135623730861
10
429.73616149554408
20
167.49999999997297
10
429.73616149554408
20
242.00098697605915
42
0.31601862701330197
10
215.09265330958837
20
547.69109920492451
42
0.098384135435650166
10
1.7840378692213035
20
579.99725620806271
0
ENDSEC
0
SECTION
2
OBJECTS
0
DICTIONARY
5
C
100
AcDbDictionary
3
ACAD_GROUP
350
D
3
ACAD_MLINESTYLE
350
17
0
DICTIONARY
5
D
100
AcDbDictionary
0
DICTIONARY
5
1A
330
C
100
AcDbDictionary
0
DICTIONARY
5
17
100
AcDbDictionary
0
ENDSEC
0
EOF
